Kytara - 4.část (taby)

1. března 2009 v 20:03 |  Škola hry na kytaru on-line
Opět vítejte u mé kejtrové školy.
Z minula byste měli umět už dost akodů, abyste s nimi zahráli většinu písniček k táboráku, ale věřím, že spoustu z Vás by chtělo už něco z elektriky.Proto se dnes naučíme něco, co je na elektriku třeba - číst taby.Díky tomu vám už budu moct lépe ukazovat nové akordy.

Tabulatura (tab) vypadá nějak takto :

E|-----------------|-----------------|-----------------|
H|-----------------|-----------------|-----------------|
G|-----------------|-----------------|-----------------|
D|-----------------|-----------------|-----------------|
A|-----------------|-----------------|-----------------|
E|-----------------|-----------------|-----------------|

Ti inteligentnější si všimli, že každý řádek znamená strunu, vysoké e je nahoře.
Ty svislé čáry jsou takty.Nevýhoda tabů je, že sice víte co hrát, ale nevíte jakou rychlostí a jak velké pauzy.To musíte odposlouchat.

Toto už je ukázka zápisu :

E|-----2------------|-----------------|-----------------|
H|-----3------------|-----------------|-----------------|
G|-----2------------|-----------------|-----------------|
D|-----0------------|-----------------|-----------------|
A|-------------------|-----------------|-----------------|
E|-------------------|-----------------|-----------------|

Číslo znamená pražec, takže máte zahrát :
Na struně e 2. pražec,
na struně H 3. pražec,
na struně G 2. pražec,
a strunu D prázdnou.

Zahrajte si to všechno najednou (brnkněte).
Poznali jste akord?Ano, je to akord D.

Nyní si ukážeme něco poněkud těžšího:

D
E|--------------2-----|-----------------|-----------------|
H|----------3---------|-----------------|-----------------|
G|------2-------------|-----------------|-----------------|
D|--0-----------------|-----------------|-----------------|
A|---------------------|-----------------|-----------------|
E|---------------------|-----------------|-----------------|

Toto je také akord D, ale musíte struny brnknout postupně.Takže nejdřív strunu D, pak G,H a poslední e.Přitom držte D.

Jestli jste taby pochopili, tak Vám ještě trochu víc zamotám hlavu.Upozorňuju Vás, že následující věci se hrají lépe na elektriku, ale na akustiku to též jde.

Pokud najdete něco takového:

D
E|--------------2h3-----|-----------------|-----------------|
H|----------3------------|-----------------|-----------------|
G|------2----------------|-----------------|-----------------|
D|--0--------------------|-----------------|-----------------|
A|------------------------|-----------------|-----------------|
E|------------------------|-----------------|-----------------|

tak se nelekejte, není to překlep.To "H" znamená hammer-on neboli že když vybrnkáte D (doporučuji hrát palcem D,ukazováčkem G, H hrát prostředníčkem a e prsteníčkem)tak při hraní struny e po brnknutí zmáčkněte malíčkem třetí pražec.


Opak hammer-on je pull-off.
Značíme ho písmenem "p".

Dsus4
E|--------------3p2-----|-----------------|-----------------|
H|----------3------------|-----------------|-----------------|
G|------2----------------|-----------------|-----------------|
D|--0--------------------|-----------------|-----------------|
A|------------------------|-----------------|-----------------|
E|------------------------|-----------------|-----------------|

Tady zahrajte Dsus4, což je D, kde držíte na e struně 3.pražec malíčkem a 2. prsteníčkem.


Mimochodem zde máte rovnou stránku dobře a skoro stejně vysvětlující taby:


Dále můžeme zapsat tapping, bend on, slide, whammy, release bend atd... , ale to jsme trochu napřed.Na stránce , na kterou jsem napsal nad tímto odstavcem odkaz, máte ještě nějaké věci navíc, ale já myslím, že tohle stačí.
Příště zkusíme vybrnkávat, a to je to nejhezčí na akustiku.

Tak čau zas příště!!!

by Fluppy 2009
 

Buď první, kdo ohodnotí tento článek.

Komentáře

1 Barman Barman | Web | 13. září 2017 v 11:38 | Reagovat

Jeste, ze hrajeme vsichni na kytaru...

2 Verca Verca | Web | 13. září 2017 v 11:43 | Reagovat

Muze levak hrat na normalni kytaru?

3 Bart Bart | Web | 25. září 2017 v 21:03 | Reagovat

Jaka je nejlepsi skola kytary

4 Bart Bart | Web | 25. září 2017 v 21:10 | Reagovat

To je moc zajimave

Nový komentář

Přihlásit se
  Ještě nemáte vlastní web? Můžete si jej zdarma založit na Blog.cz.
 

Aktuální články

Reklama